Cliffs of Dover

Origem: Desciclopédia, a enciclopédia livre de conteúdo.
Ir para: navegação, pesquisa
Este artigo é sobre um HIT!

É uma música chata, repetitiva e seu vizinho adora. SOLTE O SOM!

Music madonna.jpg
Toque Cliffs of Dover no expert... E fique igual a ele

Clifs of Dover é uma música que só foi popularizada no jogo Guitar Hero. Ninguém conhecia essa música... Talvez porque ninguém queira conhecer pela música ser de péssima qualidade para algum ouvinte, enquanto no jogo alguns jogadores tem orgasmos quando começam a tocar ela.

Além disso essa música foi a primeira a usar sons de guitarra misturados com os de polystation e também por ser a única música que Eric Johnson admitiu ser um completo fracasso experimental.

Origem[editar]

Algumas partituras para você tocar Cliffs of Dover também!

Eric Johnson criou a música após um exaustivo ensaio com sua trupe... Digo, banda. Eric estava incomodado pois não conseguia se concentrar com as batidas altas da bateria e com o ritmo do baixo... Hum?? Como assim? Ele ouviu o baixo???

Como ele não estava satisfeito por ter que aturar outros instrumentos (como a bateria ou contra-baixo) que ele dizia que atrapalhavam ele e estragavam a música.

Eric começou a tocar no improviso a canção em que ele botava em prova suas habilidades e que ele poderia mostrar para os outros que ninguém tocava guitarra melhor do que ele, pois ele é o fodão. Após ter lançado a música, muitas pessoas compravam os discos e depois de passarem 10 segundos ouvindo, jogavam o disco no lixo sem sequer ouvir as outras músicas.

Cliffs of Dover simplesmente era mais eficaz que laxante e muitas pessoas ouviam a música quando tinham intestino preso. Algumas diziam que a música servia para espantar os mendigos quebisbilhotavam os lixos, pois ninguém conseguia ouvir tal música sem ter alguma reação adversa.

Significado[editar]

Hum... Essa coisa tem significado?

Cliffs of Dover é mais ou menos um tributo para o guitarrista... A simples contemplação dos acordes e notas que essa música proporciona podem transformar um fã de música caipira em um verdadeiro seguidor de Eric Johnson.

Isso talvez seja por causa de algumas notas que transmitem mensagens secretas em código-morse. Dessa maneira, Eric fez o que muitas outras pessoas antes dele fizeram: Colocar mensagens nas músicas deles para fazerem elas virem sucessos e injetar através de mensagens secretas suas ideologias e fazer uma lavagem cerebral em massa.

Crítica[editar]

A crítica é uma palavra que não tem um bom significado. Geralmente pessoas odeiam críticos que fazem críticas construtivas para melhorar seu trabalho... Agora, os músicos nunca tiveram (e nunca vão ter) uma simpatia pela crítica quando eles xingam o trabalho deles.

Após ter sido esculachado pela crítica, Eric resolveu criar uma montanha de outras músicas (algumas até mesmo piores do que Cliffs of Dover) para tentar encobertar seu fracasso com Cliffs of Dover. No final, o Guitar Hero desenterrou o fracasso de Eric Johnson e trouxe de volta a vergonha que estava no passado distante.

Depois que soube disso, Eric se revirou no túmulo e depois foi desenterrado por uma seita local de necrófilos... O final, deixamos que você decida.

Notas[editar]

Agora vou mostrarde uma maneira que só um nerd entende.
Cliffs of Dover... Or not

OBS. Como a música não tem letra nenhuma, o jeito foi colocar as notas. Se você não for nerd e saber tocar algum instrumento que não seja órgão, vai entender o ritmo da música e talvez entenda que são cifras de uma música clássica de nome idêntico chamado "White Cliffs of Dover"... Enfim, a música é mais conhecida pelo solo de entrada e o resto é considerado inútil. Por isso mesmo as pessoas que compravam os discos de Eric só ouviam os primeiros 10 segundos.

|--15'--15-12-14----12--------12----------------12-15-14p12----14-12----------
|----------------15----12-15~---15p12-----12-15-------------15-------15p12-15-
|-------------------------------------14'-------------------------------------
|-----------------------------------------------------------------------------
|-----------------------------------------------------------------------------
|-0---------------------------------------------------------------------------

|--12-----------------------------------------------5-7-6-5-----------------
|-----15p12----15p12----15p12------------------5--8---------8-5---5-7---5-3-
|-----------14-------14'-------14'(14)p12----7------------------7-----4-----
|-----------------------------------------14--------------------------------
|---------------------------------------------------------------------------
|---------------------------------------------------------------------------

|---------------------------------------------
|-----------------------------------------8'--
|--4p2---4p2----------------------------------
|------5-----5-2----5-2-----2-0---------------
|-----------------5-----5-2-----2-0-----------
|-----------------------------------3'p0------

|---------------------7----8/10~--8--------------------------------------------
|--------5-----7/8-10---10----------12-------12-------13~----------15-------17-
|------------------------------------------------------------------------------
|------7-----9----------------------------14-------14-----------17-------17----
|--2/3-----5---------------------------10-------12--------12/14-------15-------
|------------------------------------------------------------------------------

|-----------15~-15----15----15----15----15----15----15----15----15----15----15-
|--------19--------19----------------------------17----19----------------------
|------------------------19----------------17----------------19----------------
|-----19-----------------------19----17----------------------------19----17----
|--17--------------------------------------------------------------------------
|------------------------------------------------------------------------------

|--15----15----15----15----15----15----15----17-15----15-19-17-15----17-15-
|-----------17----19----------------17----19-------19-------------19-------
|-----17----------------19----17-------------------------------------------
|--------------------------------------------------------------------------
|--------------------------------------------------------------------------
|--------------------------------------------------------------------------

|--------------------------------------------------------------------------
|--19-15----17-15----------------------------------------------------------
|--------17-------17-14----16-14----------16-14----------16-14-------------
|-----------------------17-------17-14----------17-14----------17-14-------
|--------------------------------------17-------------17-------------17----
|-----------------------------------------------------------------------15-

A música[editar]

Ver também[editar]