Descifras:Risca faca

Origem: Desciclopédia, a enciclopédia livre de conteúdo.
Ir para: navegação, pesquisa
Nuvola apps bookcase.png
Este artigo é parte do Deslivros, a sua biblioteca livre de conteúdo.


Nuvola apps kcmmidi.png
Esta página é parte do acervo de Descifras

O melhor lugar para se pegar aquela tradução que você nunca viu.

Risca faca é uma música do cantor Pepe Moreno nascido em Macaúbas Bahia

Tabela de conteúdo

[editar] Compositores

Risca Facaaaaaa!!!!
Bêbado riscando a faca no bar

A Banda Aviões do Forró foi formada a base de facadas de tiros fazendo sua primeira aparição em agosto de 2002 depois de ter recebido o apoio de quatro empresários bêbados do ramo de bares e fabricas de facas em Fortaleza estado do Ceará. A música Risca faca foi um processo de montagem da banda dentro de bares em Fortaleza, depois de várias facadas os cantores Xandy e Solange, conseguiram sucesso matando muita gente de cirrose e bucho furado no Brasil todo

[editar] Letra

  • Aviões do Forró
  • Composição: Capeta

De bar em bar
De mesa em mesa
Bebendo cachaça,
Tomando cerveja.

De bar em bar
De mesa em mesa
Bebendo cachaça,
Tomando cerveja.

Foi assim...
Que eu te conheci.

Olha que
Foi no risca faca
Que eu te conheci
Dançando...
Enchendo a cara
Fazendo farra
To nem ai...

Foi no risca faca
Que eu te conheci
Dançando...
Enchendo a cara
Fazendo farra
To nem ai...

[editar] Vídeo Cripi original risca faca

Risca faca ao vivo

[editar] Partitura de Risca faca para solar no pandeiro

De bar em bar De mesa em mesa Bebendo cachaça, Tomando cerveja

E|--2-2-2-----------------------------|-2-2-2-2--------------------------------------8787-878-----878-78-78-78-7-8--1-51-65--|
B|-----3-2-3/5--3-2--2-2--0-2-3-----|----3-3---2----5-5-5-5---2-3---|
G|-------------------------------------|-------------4--------------2-4-------8787878-i7-87-87-87-i8-7i8-78-78-7i-878-78-78-7|
D|-------------------------------------|-------------------------------------------------------56545645454---------545-4-----|
A|------------897877878----------------|--------------------------------------554854-84784784-----------8484-8-448545--------|
E|-------------------------------------|-------------------------------------------------------------------------------------|
Olha que Foi no risca faca Que eu te conheci Dançando... Enchendo a cara Fazendo farra To nem ai...

E|--2-2-2-----------------------------|-2-2-2-2------------------------------------------------------------------------------|
B|-----3-2-3/5--3-2--2-2--0-2-3-----|----3-3---2----5-5-5-5---2-3---54545--------errei---------------------------------------|
G|-------------------------------------|-------------4--------------2-4-------000000000---------23233232---------------------|
D|-------------------3-----------------|------------------------------------88787878-----------------------------------------|
A|---------3---------------------------|------------15548784---------------------------------------------------56548784522---|
E|-------------------------------------|---------------------------------22222233333-----------------------------------------|


Acordes de Risca faca para você furar os dedos na sanfona
Acordes de beber cópia.gif

[editar] Verão chifrada

típico riscador de facas depois de tomar várias cervejas

mi
De bar em bar
de ré
De mesa em mesa
SOL
Bebendo cachaça,
SOL#
Tomando cerveja.
C
De bar em bar
LÁ%
De mesa em mesa
SI
Bebendo cachaça,
B#
Tomando cerveja.
C
Foi assim...
Que eu te conheci.

Olha que
C
Foi no risca faca
#Si sustenido
Que eu te conheci

Dançando...

Enchendo a cara
C
Fazendo farra
To nem ai...
C
Foi no risca faca
C
Que eu te conheci
C
Dançando...
Enchendo a cara
G
Fazendo farra
SOL
To nem ai...


Bar do risca faca

[editar] Ver também

Speaker.gif
Ferramentas pessoais
Ver e modificar namespaces

Variantes
Visualizações
Ações
Navegação
Colaboração
Votações
(F)Utilidades
Novidades
Redes sociais
Correlatos
Ferramentas